ISO-10303-21;
HEADER;
FILE_DESCRIPTION (( 'STEP AP203' ),
    '1' );
FILE_NAME ('QB-CTZHWP-20-894-M.STEP',
    '2020-12-24T01:36:14',
    ( '' ),
    ( '' ),
    'SwSTEP 2.0',
    'SolidWorks 2020',
    '' );
FILE_SCHEMA (( 'CONFIG_CONTROL_DESIGN' ));
ENDSEC;

DATA;
#1 = CYLINDRICAL_SURFACE ( 'NONE', #251, 12.69999999999999929 ) ;
#2 = CARTESIAN_POINT ( 'NONE',  ( 2.500000000000000888, 0.000000000000000000, 0.000000000000000000 ) ) ;
#3 = UNCERTAINTY_MEASURE_WITH_UNIT (LENGTH_MEASURE( 1.000000000000000082E-05 ), #191, 'distance_accuracy_value', 'NONE');
#4 = ORIENTED_EDGE ( 'NONE', *, *, #100, .F. ) ;
#5 = CIRCLE ( 'NONE', #69, 12.69999999999999929 ) ;
#6 = APPROVAL_PERSON_ORGANIZATION ( #184, #208, #232 ) ;
#7 = VERTEX_POINT ( 'NONE', #103 ) ;
#8 = APPLICATION_PROTOCOL_DEFINITION ( 'international standard', 'config_control_design', 1994, #335 ) ;
#9 = AXIS2_PLACEMENT_3D ( 'NONE', #254, #279, #170 ) ;
#10 = SECURITY_CLASSIFICATION ( '', '', #305 ) ;
#11 = LINE ( 'NONE', #275, #308 ) ;
#12 = FACE_OUTER_BOUND ( 'NONE', #72, .T. ) ;
#13 = DIRECTION ( 'NONE',  ( 0.000000000000000000, 0.000000000000000000, 1.000000000000000000 ) ) ;
#14 = CARTESIAN_POINT ( 'NONE',  ( 2.999999999999999112, 1.224646799147353256E-15, -10.00000000000000000 ) ) ;
#15 = AXIS2_PLACEMENT_3D ( 'NONE', #238, #79, #136 ) ;
#16 = DIRECTION ( 'NONE',  ( 1.000000000000000000, 0.000000000000000000, 0.000000000000000000 ) ) ;
#17 = DIRECTION ( 'NONE',  ( -0.000000000000000000, 0.000000000000000000, 1.000000000000000000 ) ) ;
#18 = CARTESIAN_POINT ( 'NONE',  ( 3.000000000000000000, 0.000000000000000000, 0.000000000000000000 ) ) ;
#19 = DIRECTION ( 'NONE',  ( 0.000000000000000000, 0.000000000000000000, 1.000000000000000000 ) ) ;
#20 = AXIS2_PLACEMENT_3D ( 'NONE', #195, #95, #119 ) ;
#21 = VERTEX_POINT ( 'NONE', #178 ) ;
#22 = ORIENTED_EDGE ( 'NONE', *, *, #58, .F. ) ;
#23 = COORDINATED_UNIVERSAL_TIME_OFFSET ( 8, 0, .AHEAD. ) ;
#24 = FACE_OUTER_BOUND ( 'NONE', #130, .T. ) ;
#25 = VECTOR ( 'NONE', #93, 1000.000000000000000 ) ;
#26 = LOCAL_TIME ( 9, 36, 14.00000000000000000, #269 ) ;
#27 = ADVANCED_FACE ( 'NONE', ( #24 ), #1, .T. ) ;
#28 = DIRECTION ( 'NONE',  ( -1.000000000000000000, -0.000000000000000000, -0.000000000000000000 ) ) ;
#29 = EDGE_LOOP ( 'NONE', ( #287, #104, #231, #314 ) ) ;
#30 = ORIENTED_EDGE ( 'NONE', *, *, #205, .F. ) ;
#31 = EDGE_CURVE ( 'NONE', #21, #283, #157, .T. ) ;
#32 = CALENDAR_DATE ( 2020, 24, 12 ) ;
#33 = VECTOR ( 'NONE', #300, 1000.000000000000000 ) ;
#34 = PRODUCT_DEFINITION ( 'UNKNOWN', '', #135, #81 ) ;
#35 = CC_DESIGN_APPROVAL ( #208, ( #10 ) ) ;
#36 = CARTESIAN_POINT ( 'NONE',  ( -1.614212418857619014, 0.000000000000000000, 10.00000000000000000 ) ) ;
#37 = CARTESIAN_POINT ( 'NONE',  ( 2.500000000000000888, 0.000000000000000000, 10.00000000000000000 ) ) ;
#38 = DIRECTION ( 'NONE',  ( 1.000000000000000000, 0.000000000000000000, 0.000000000000000000 ) ) ;
#39 = CIRCLE ( 'NONE', #82, 12.69999999999999929 ) ;
#40 = FACE_OUTER_BOUND ( 'NONE', #29, .T. ) ;
#41 = FACE_BOUND ( 'NONE', #213, .T. ) ;
#42 = DIRECTION ( 'NONE',  ( -1.000000000000000000, -0.000000000000000000, -0.000000000000000000 ) ) ;
#43 = EDGE_CURVE ( 'NONE', #310, #188, #115, .T. ) ;
#44 = DATE_TIME_ROLE ( 'classification_date' ) ;
#45 = VERTEX_POINT ( 'NONE', #110 ) ;
#46 = CC_DESIGN_PERSON_AND_ORGANIZATION_ASSIGNMENT ( #293, #166, ( #34 ) ) ;
#47 = VECTOR ( 'NONE', #272, 1000.000000000000000 ) ;
#48 = CC_DESIGN_SECURITY_CLASSIFICATION ( #10, ( #135 ) ) ;
#49 = ORIENTED_EDGE ( 'NONE', *, *, #237, .T. ) ;
#50 = COORDINATED_UNIVERSAL_TIME_OFFSET ( 8, 0, .AHEAD. ) ;
#51 = EDGE_LOOP ( 'NONE', ( #83, #282 ) ) ;
#52 = FACE_OUTER_BOUND ( 'NONE', #186, .T. ) ;
#53 = CARTESIAN_POINT ( 'NONE',  ( -1.614212418857619014, 1.224646799147353256E-15, -10.00000000000000000 ) ) ;
#54 = VECTOR ( 'NONE', #286, 1000.000000000000000 ) ;
#55 = LOCAL_TIME ( 9, 36, 14.00000000000000000, #23 ) ;
#56 = ORIENTED_EDGE ( 'NONE', *, *, #165, .T. ) ;
#57 = EDGE_LOOP ( 'NONE', ( #333, #30 ) ) ;
#58 = EDGE_CURVE ( 'NONE', #215, #188, #311, .T. ) ;
#59 =( NAMED_UNIT ( * ) PLANE_ANGLE_UNIT ( ) SI_UNIT ( $, .RADIAN. ) );
#60 = PERSON_AND_ORGANIZATION ( #214, #278 ) ;
#61 = DATE_AND_TIME ( #117, #303 ) ;
#62 = FACE_OUTER_BOUND ( 'NONE', #113, .T. ) ;
#63 = CIRCLE ( 'NONE', #256, 12.69999999999999929 ) ;
#64 = DATE_AND_TIME ( #32, #26 ) ;
#65 = DIRECTION ( 'NONE',  ( 0.000000000000000000, 0.000000000000000000, -1.000000000000000000 ) ) ;
#66 = DIRECTION ( 'NONE',  ( -1.000000000000000000, -0.000000000000000000, -0.000000000000000000 ) ) ;
#67 = DIRECTION ( 'NONE',  ( -1.000000000000000000, -0.000000000000000000, -0.000000000000000000 ) ) ;
#68 = CARTESIAN_POINT ( 'NONE',  ( -3.000000000000000444, 0.000000000000000000, 10.00000000000000000 ) ) ;
#69 = AXIS2_PLACEMENT_3D ( 'NONE', #18, #301, #126 ) ;
#70 = CC_DESIGN_APPROVAL ( #325, ( #135 ) ) ;
#71 = DIRECTION ( 'NONE',  ( -1.000000000000000000, -0.000000000000000000, -0.000000000000000000 ) ) ;
#72 = EDGE_LOOP ( 'NONE', ( #4, #128, #155, #234 ) ) ;
#73 = ORIENTED_EDGE ( 'NONE', *, *, #43, .T. ) ;
#74 = AXIS2_PLACEMENT_3D ( 'NONE', #309, #183, #210 ) ;
#75 = CYLINDRICAL_SURFACE ( 'NONE', #15, 10.00000000000000000 ) ;
#76 = ADVANCED_FACE ( 'NONE', ( #106 ), #75, .F. ) ;
#77 = PERSON_AND_ORGANIZATION_ROLE ( 'classification_officer' ) ;
#78 = ORIENTED_EDGE ( 'NONE', *, *, #94, .F. ) ;
#79 = DIRECTION ( 'NONE',  ( -1.000000000000000000, -0.000000000000000000, -0.000000000000000000 ) ) ;
#80 = CC_DESIGN_PERSON_AND_ORGANIZATION_ASSIGNMENT ( #319, #273, ( #135 ) ) ;
#81 = DESIGN_CONTEXT ( 'detailed design', #335, 'design' ) ;
#82 = AXIS2_PLACEMENT_3D ( 'NONE', #302, #255, #127 ) ;
#83 = ORIENTED_EDGE ( 'NONE', *, *, #43, .F. ) ;
#84 = ORIENTED_EDGE ( 'NONE', *, *, #331, .T. ) ;
#85 = APPLICATION_CONTEXT ( 'configuration controlled 3d designs of mechanical parts and assemblies' ) ;
#86 = CALENDAR_DATE ( 2020, 24, 12 ) ;
#87 = CIRCLE ( 'NONE', #122, 10.00000000000000000 ) ;
#88 = CIRCLE ( 'NONE', #296, 10.00000000000000000 ) ;
#89 = ADVANCED_FACE ( 'NONE', ( #52 ), #235, .F. ) ;
#90 = COORDINATED_UNIVERSAL_TIME_OFFSET ( 8, 0, .AHEAD. ) ;
#91 = PERSON_AND_ORGANIZATION ( #214, #278 ) ;
#92 = CARTESIAN_POINT ( 'NONE',  ( -3.000000000000000000, 10.00000000000000000, 0.000000000000000000 ) ) ;
#93 = DIRECTION ( 'NONE',  ( -1.000000000000000000, -0.000000000000000000, -0.000000000000000000 ) ) ;
#94 = EDGE_CURVE ( 'NONE', #153, #7, #264, .T. ) ;
#95 = DIRECTION ( 'NONE',  ( -1.000000000000000000, -0.000000000000000000, -0.000000000000000000 ) ) ;
#96 = FACE_OUTER_BOUND ( 'NONE', #233, .T. ) ;
#97 = EDGE_CURVE ( 'NONE', #7, #291, #88, .T. ) ;
#98 = DIRECTION ( 'NONE',  ( 0.000000000000000000, 0.000000000000000000, 1.000000000000000000 ) ) ;
#99 = DIRECTION ( 'NONE',  ( 0.000000000000000000, 0.000000000000000000, 1.000000000000000000 ) ) ;
#100 = EDGE_CURVE ( 'NONE', #215, #45, #107, .T. ) ;
#101 = CARTESIAN_POINT ( 'NONE',  ( -2.500000000000000444, 1.224646799147353256E-15, -10.00000000000000000 ) ) ;
#102 = ADVANCED_FACE ( 'NONE', ( #40 ), #228, .T. ) ;
#103 = CARTESIAN_POINT ( 'NONE',  ( -3.000000000000000444, 1.224646799147353256E-15, -10.00000000000000000 ) ) ;
#104 = ORIENTED_EDGE ( 'NONE', *, *, #205, .T. ) ;
#105 = PERSON_AND_ORGANIZATION ( #214, #278 ) ;
#106 = FACE_OUTER_BOUND ( 'NONE', #129, .T. ) ;
#107 = CIRCLE ( 'NONE', #236, 10.00000000000000000 ) ;
#108 = PERSON_AND_ORGANIZATION_ROLE ( 'design_supplier' ) ;
#109 = ORIENTED_EDGE ( 'NONE', *, *, #97, .F. ) ;
#110 = CARTESIAN_POINT ( 'NONE',  ( 2.999999999999999112, 0.000000000000000000, 10.00000000000000000 ) ) ;
#111 = ADVANCED_FACE ( 'NONE', ( #172 ), #123, .F. ) ;
#112 = ORIENTED_EDGE ( 'NONE', *, *, #320, .F. ) ;
#113 = EDGE_LOOP ( 'NONE', ( #22, #258, #138, #73 ) ) ;
#114 = DIRECTION ( 'NONE',  ( 1.000000000000000000, 0.000000000000000000, 0.000000000000000000 ) ) ;
#115 = CIRCLE ( 'NONE', #147, 10.00000000000000000 ) ;
#116 = APPROVAL_PERSON_ORGANIZATION ( #144, #212, #316 ) ;
#117 = CALENDAR_DATE ( 2020, 24, 12 ) ;
#118 = CARTESIAN_POINT ( 'NONE',  ( -2.500000000000000444, 0.000000000000000000, 0.000000000000000000 ) ) ;
#119 = DIRECTION ( 'NONE',  ( 0.000000000000000000, 0.000000000000000000, 1.000000000000000000 ) ) ;
#120 = CARTESIAN_POINT ( 'NONE',  ( 2.500000000000000888, 0.000000000000000000, 0.000000000000000000 ) ) ;
#121 = DIRECTION ( 'NONE',  ( 0.000000000000000000, 0.000000000000000000, -1.000000000000000000 ) ) ;
#122 = AXIS2_PLACEMENT_3D ( 'NONE', #118, #38, #223 ) ;
#123 = CYLINDRICAL_SURFACE ( 'NONE', #268, 10.00000000000000000 ) ;
#124 = CARTESIAN_POINT ( 'NONE',  ( -2.500000000000000444, 0.000000000000000000, 10.00000000000000000 ) ) ;
#125 = CARTESIAN_POINT ( 'NONE',  ( -3.000000000000000444, 0.000000000000000000, 0.000000000000000000 ) ) ;
#126 = DIRECTION ( 'NONE',  ( 0.000000000000000000, 0.000000000000000000, 1.000000000000000000 ) ) ;
#127 = DIRECTION ( 'NONE',  ( 0.000000000000000000, 0.000000000000000000, 1.000000000000000000 ) ) ;
#128 = ORIENTED_EDGE ( 'NONE', *, *, #58, .T. ) ;
#129 = EDGE_LOOP ( 'NONE', ( #179, #243, #140, #206 ) ) ;
#130 = EDGE_LOOP ( 'NONE', ( #49, #182, #185, #266 ) ) ;
#131 = CALENDAR_DATE ( 2020, 24, 12 ) ;
#132 = ADVANCED_FACE ( 'NONE', ( #276 ), #150, .F. ) ;
#133 = DIRECTION ( 'NONE',  ( 0.000000000000000000, 0.000000000000000000, 1.000000000000000000 ) ) ;
#134 = CIRCLE ( 'NONE', #230, 10.00000000000000000 ) ;
#135 = PRODUCT_DEFINITION_FORMATION_WITH_SPECIFIED_SOURCE ( 'ANY', '', #326, .NOT_KNOWN. ) ;
#136 = DIRECTION ( 'NONE',  ( 0.000000000000000000, 0.000000000000000000, 1.000000000000000000 ) ) ;
#137 = CC_DESIGN_DATE_AND_TIME_ASSIGNMENT ( #323, #192, ( #34 ) ) ;
#138 = ORIENTED_EDGE ( 'NONE', *, *, #173, .T. ) ;
#139 =( GEOMETRIC_REPRESENTATION_CONTEXT ( 3 ) GLOBAL_UNCERTAINTY_ASSIGNED_CONTEXT ( ( #3 ) ) GLOBAL_UNIT_ASSIGNED_CONTEXT ( ( #191, #59, #162 ) ) REPRESENTATION_CONTEXT ( 'NONE', 'WORKASPACE' ) );
#140 = ORIENTED_EDGE ( 'NONE', *, *, #97, .T. ) ;
#141 = APPLICATION_PROTOCOL_DEFINITION ( 'international standard', 'config_control_design', 1994, #85 ) ;
#142 = CARTESIAN_POINT ( 'NONE',  ( 0.000000000000000000, 0.000000000000000000, 0.000000000000000000 ) ) ;
#143 = CARTESIAN_POINT ( 'NONE',  ( -1.614212418857619014, 0.000000000000000000, 0.000000000000000000 ) ) ;
#144 = PERSON_AND_ORGANIZATION ( #214, #278 ) ;
#145 = DIRECTION ( 'NONE',  ( -1.000000000000000000, -0.000000000000000000, -0.000000000000000000 ) ) ;
#146 = CARTESIAN_POINT ( 'NONE',  ( 2.999999999999999112, 0.000000000000000000, 0.000000000000000000 ) ) ;
#147 = AXIS2_PLACEMENT_3D ( 'NONE', #2, #261, #133 ) ;
#148 = CARTESIAN_POINT ( 'NONE',  ( 2.500000000000000444, 10.00000000000000000, 0.000000000000000000 ) ) ;
#149 = DIRECTION ( 'NONE',  ( 0.000000000000000000, 0.000000000000000000, 1.000000000000000000 ) ) ;
#150 = PLANE ( 'NONE',  #271 ) ;
#151 = MANIFOLD_SOLID_BREP ( 'Ðý×', #277 ) ;
#152 = APPROVAL_DATE_TIME ( #284, #208 ) ;
#153 = VERTEX_POINT ( 'NONE', #101 ) ;
#154 = AXIS2_PLACEMENT_3D ( 'NONE', #92, #16, #121 ) ;
#155 = ORIENTED_EDGE ( 'NONE', *, *, #216, .T. ) ;
#156 = CARTESIAN_POINT ( 'NONE',  ( -1.614212418857619014, 1.224646799147353256E-15, -10.00000000000000000 ) ) ;
#157 = LINE ( 'NONE', #240, #54 ) ;
#158 = CC_DESIGN_APPROVAL ( #212, ( #34 ) ) ;
#159 = ORIENTED_EDGE ( 'NONE', *, *, #193, .T. ) ;
#160 = VERTEX_POINT ( 'NONE', #204 ) ;
#161 = VECTOR ( 'NONE', #211, 1000.000000000000000 ) ;
#162 =( NAMED_UNIT ( * ) SI_UNIT ( $, .STERADIAN. ) SOLID_ANGLE_UNIT ( ) );
#163 = CC_DESIGN_DATE_AND_TIME_ASSIGNMENT ( #281, #44, ( #10 ) ) ;
#164 = APPROVAL_ROLE ( '' ) ;
#165 = EDGE_CURVE ( 'NONE', #283, #241, #39, .T. ) ;
#166 = PERSON_AND_ORGANIZATION_ROLE ( 'creator' ) ;
#167 = CIRCLE ( 'NONE', #20, 10.00000000000000000 ) ;
#168 = CARTESIAN_POINT ( 'NONE',  ( -3.000000000000000000, 0.000000000000000000, 12.69999999999999929 ) ) ;
#169 = COORDINATED_UNIVERSAL_TIME_OFFSET ( 8, 0, .AHEAD. ) ;
#170 = DIRECTION ( 'NONE',  ( -0.000000000000000000, 0.000000000000000000, 1.000000000000000000 ) ) ;
#171 = DIRECTION ( 'NONE',  ( -1.000000000000000000, -0.000000000000000000, -0.000000000000000000 ) ) ;
#172 = FACE_OUTER_BOUND ( 'NONE', #207, .T. ) ;
#173 = EDGE_CURVE ( 'NONE', #45, #310, #11, .T. ) ;
#174 = CARTESIAN_POINT ( 'NONE',  ( 2.500000000000000888, 1.224646799147353256E-15, -10.00000000000000000 ) ) ;
#175 = APPROVAL_PERSON_ORGANIZATION ( #60, #325, #164 ) ;
#176 = CARTESIAN_POINT ( 'NONE',  ( 2.999999999999999112, 0.000000000000000000, 0.000000000000000000 ) ) ;
#177 = PRODUCT_RELATED_PRODUCT_CATEGORY ( 'detail', '', ( #326 ) ) ;
#178 = CARTESIAN_POINT ( 'NONE',  ( 3.000000000000000000, 0.000000000000000000, 12.69999999999999929 ) ) ;
#179 = ORIENTED_EDGE ( 'NONE', *, *, #201, .T. ) ;
#180 = CC_DESIGN_PERSON_AND_ORGANIZATION_ASSIGNMENT ( #105, #77, ( #10 ) ) ;
#181 = CARTESIAN_POINT ( 'NONE',  ( -1.614212418857619014, 0.000000000000000000, 0.000000000000000000 ) ) ;
#182 = ORIENTED_EDGE ( 'NONE', *, *, #260, .T. ) ;
#183 = DIRECTION ( 'NONE',  ( 1.000000000000000000, 0.000000000000000000, 0.000000000000000000 ) ) ;
#184 = PERSON_AND_ORGANIZATION ( #214, #278 ) ;
#185 = ORIENTED_EDGE ( 'NONE', *, *, #165, .F. ) ;
#186 = EDGE_LOOP ( 'NONE', ( #267, #285 ) ) ;
#187 = ADVANCED_FACE ( 'NONE', ( #41, #96 ), #248, .F. ) ;
#188 = VERTEX_POINT ( 'NONE', #174 ) ;
#189 = ADVANCED_FACE ( 'NONE', ( #229, #298 ), #246, .F. ) ;
#190 = AXIS2_PLACEMENT_3D ( 'NONE', #330, #202, #280 ) ;
#191 =( LENGTH_UNIT ( ) NAMED_UNIT ( * ) SI_UNIT ( .MILLI., .METRE. ) );
#192 = DATE_TIME_ROLE ( 'creation_date' ) ;
#193 = EDGE_CURVE ( 'NONE', #290, #291, #203, .T. ) ;
#194 = PRODUCT_DEFINITION_SHAPE ( 'NONE', 'NONE',  #34 ) ;
#195 = CARTESIAN_POINT ( 'NONE',  ( -3.000000000000000444, 0.000000000000000000, 0.000000000000000000 ) ) ;
#196 = CYLINDRICAL_SURFACE ( 'NONE', #244, 10.00000000000000000 ) ;
#197 = AXIS2_PLACEMENT_3D ( 'NONE', #250, #227, #149 ) ;
#198 = CARTESIAN_POINT ( 'NONE',  ( -1.614212418857619014, 1.555301434917138433E-15, -12.69999999999999929 ) ) ;
#199 = DIRECTION ( 'NONE',  ( 0.000000000000000000, 0.000000000000000000, 1.000000000000000000 ) ) ;
#200 = DIRECTION ( 'NONE',  ( -1.000000000000000000, -0.000000000000000000, -0.000000000000000000 ) ) ;
#201 = EDGE_CURVE ( 'NONE', #290, #153, #87, .T. ) ;
#202 = DIRECTION ( 'NONE',  ( -1.000000000000000000, -0.000000000000000000, -0.000000000000000000 ) ) ;
#203 = LINE ( 'NONE', #36, #25 ) ;
#204 = CARTESIAN_POINT ( 'NONE',  ( 3.000000000000000000, 1.555301434917138433E-15, -12.69999999999999929 ) ) ;
#205 = EDGE_CURVE ( 'NONE', #160, #21, #262, .T. ) ;
#206 = ORIENTED_EDGE ( 'NONE', *, *, #193, .F. ) ;
#207 = EDGE_LOOP ( 'NONE', ( #78, #306, #159, #257 ) ) ;
#208 = APPROVAL ( #209, 'UNSPECIFIED' ) ;
#209 = APPROVAL_STATUS ( 'not_yet_approved' ) ;
#210 = DIRECTION ( 'NONE',  ( 0.000000000000000000, 0.000000000000000000, -1.000000000000000000 ) ) ;
#211 = DIRECTION ( 'NONE',  ( -1.000000000000000000, -0.000000000000000000, -0.000000000000000000 ) ) ;
#212 = APPROVAL ( #318, 'UNSPECIFIED' ) ;
#213 = EDGE_LOOP ( 'NONE', ( #112, #109 ) ) ;
#214 = PERSON ( 'UNSPECIFIED', 'UNSPECIFIED', 'UNSPECIFIED', ('UNSPECIFIED'), ('UNSPECIFIED'), ('UNSPECIFIED') ) ;
#215 = VERTEX_POINT ( 'NONE', #14 ) ;
#216 = EDGE_CURVE ( 'NONE', #188, #310, #292, .T. ) ;
#217 = DIRECTION ( 'NONE',  ( -1.000000000000000000, -0.000000000000000000, -0.000000000000000000 ) ) ;
#218 = AXIS2_PLACEMENT_3D ( 'NONE', #120, #200, #225 ) ;
#219 = AXIS2_PLACEMENT_3D ( 'NONE', #142, #199, #114 ) ;
#220 = MECHANICAL_CONTEXT ( 'NONE', #85, 'mechanical' ) ;
#221 = CC_DESIGN_PERSON_AND_ORGANIZATION_ASSIGNMENT ( #91, #247, ( #326 ) ) ;
#222 = APPROVAL_DATE_TIME ( #64, #325 ) ;
#223 = DIRECTION ( 'NONE',  ( 0.000000000000000000, 0.000000000000000000, -1.000000000000000000 ) ) ;
#224 = DIRECTION ( 'NONE',  ( -1.000000000000000000, -0.000000000000000000, -0.000000000000000000 ) ) ;
#225 = DIRECTION ( 'NONE',  ( 0.000000000000000000, 0.000000000000000000, 1.000000000000000000 ) ) ;
#226 = CARTESIAN_POINT ( 'NONE',  ( -1.614212418857619014, 0.000000000000000000, 0.000000000000000000 ) ) ;
#227 = DIRECTION ( 'NONE',  ( -1.000000000000000000, -0.000000000000000000, -0.000000000000000000 ) ) ;
#228 = CYLINDRICAL_SURFACE ( 'NONE', #190, 12.69999999999999929 ) ;
#229 = FACE_OUTER_BOUND ( 'NONE', #57, .T. ) ;
#230 = AXIS2_PLACEMENT_3D ( 'NONE', #146, #145, #252 ) ;
#231 = ORIENTED_EDGE ( 'NONE', *, *, #31, .T. ) ;
#232 = APPROVAL_ROLE ( '' ) ;
#233 = EDGE_LOOP ( 'NONE', ( #56, #84 ) ) ;
#234 = ORIENTED_EDGE ( 'NONE', *, *, #173, .F. ) ;
#235 = PLANE ( 'NONE',  #74 ) ;
#236 = AXIS2_PLACEMENT_3D ( 'NONE', #176, #42, #328 ) ;
#237 = EDGE_CURVE ( 'NONE', #21, #160, #5, .T. ) ;
#238 = CARTESIAN_POINT ( 'NONE',  ( -1.614212418857619014, 0.000000000000000000, 0.000000000000000000 ) ) ;
#239 = CC_DESIGN_PERSON_AND_ORGANIZATION_ASSIGNMENT ( #249, #108, ( #135 ) ) ;
#240 = CARTESIAN_POINT ( 'NONE',  ( -1.614212418857619014, 0.000000000000000000, 12.69999999999999929 ) ) ;
#241 = VERTEX_POINT ( 'NONE', #274 ) ;
#242 = ADVANCED_FACE ( 'NONE', ( #12 ), #196, .F. ) ;
#243 = ORIENTED_EDGE ( 'NONE', *, *, #94, .T. ) ;
#244 = AXIS2_PLACEMENT_3D ( 'NONE', #329, #224, #295 ) ;
#245 = APPROVAL_DATE_TIME ( #61, #212 ) ;
#246 = PLANE ( 'NONE',  #9 ) ;
#247 = PERSON_AND_ORGANIZATION_ROLE ( 'design_owner' ) ;
#248 = PLANE ( 'NONE',  #154 ) ;
#249 = PERSON_AND_ORGANIZATION ( #214, #278 ) ;
#250 = CARTESIAN_POINT ( 'NONE',  ( 3.000000000000000000, 0.000000000000000000, 0.000000000000000000 ) ) ;
#251 = AXIS2_PLACEMENT_3D ( 'NONE', #181, #28, #288 ) ;
#252 = DIRECTION ( 'NONE',  ( 0.000000000000000000, 0.000000000000000000, 1.000000000000000000 ) ) ;
#253 = DIRECTION ( 'NONE',  ( -1.000000000000000000, 0.000000000000000000, -0.000000000000000000 ) ) ;
#254 = CARTESIAN_POINT ( 'NONE',  ( 2.999999999999999112, 12.69999999999999929, 0.000000000000000000 ) ) ;
#255 = DIRECTION ( 'NONE',  ( -1.000000000000000000, -0.000000000000000000, -0.000000000000000000 ) ) ;
#256 = AXIS2_PLACEMENT_3D ( 'NONE', #294, #217, #13 ) ;
#257 = ORIENTED_EDGE ( 'NONE', *, *, #320, .T. ) ;
#258 = ORIENTED_EDGE ( 'NONE', *, *, #270, .F. ) ;
#259 = CALENDAR_DATE ( 2020, 24, 12 ) ;
#260 = EDGE_CURVE ( 'NONE', #160, #241, #327, .T. ) ;
#261 = DIRECTION ( 'NONE',  ( -1.000000000000000000, -0.000000000000000000, -0.000000000000000000 ) ) ;
#262 = CIRCLE ( 'NONE', #197, 12.69999999999999929 ) ;
#263 = LOCAL_TIME ( 9, 36, 14.00000000000000000, #50 ) ;
#264 = LINE ( 'NONE', #156, #33 ) ;
#265 = ADVANCED_FACE ( 'NONE', ( #62 ), #299, .F. ) ;
#266 = ORIENTED_EDGE ( 'NONE', *, *, #31, .F. ) ;
#267 = ORIENTED_EDGE ( 'NONE', *, *, #201, .F. ) ;
#268 = AXIS2_PLACEMENT_3D ( 'NONE', #226, #71, #98 ) ;
#269 = COORDINATED_UNIVERSAL_TIME_OFFSET ( 8, 0, .AHEAD. ) ;
#270 = EDGE_CURVE ( 'NONE', #45, #215, #134, .T. ) ;
#271 = AXIS2_PLACEMENT_3D ( 'NONE', #148, #253, #17 ) ;
#272 = DIRECTION ( 'NONE',  ( -1.000000000000000000, -0.000000000000000000, -0.000000000000000000 ) ) ;
#273 = PERSON_AND_ORGANIZATION_ROLE ( 'creator' ) ;
#274 = CARTESIAN_POINT ( 'NONE',  ( -3.000000000000000000, 1.555301434917138433E-15, -12.69999999999999929 ) ) ;
#275 = CARTESIAN_POINT ( 'NONE',  ( -1.614212418857619014, 0.000000000000000000, 10.00000000000000000 ) ) ;
#276 = FACE_OUTER_BOUND ( 'NONE', #51, .T. ) ;
#277 = CLOSED_SHELL ( 'NONE', ( #27, #76, #242, #132, #265, #111, #187, #102, #189, #89 ) ) ;
#278 = ORGANIZATION ( 'UNSPECIFIED', 'UNSPECIFIED', '' ) ;
#279 = DIRECTION ( 'NONE',  ( -1.000000000000000000, 0.000000000000000000, -0.000000000000000000 ) ) ;
#280 = DIRECTION ( 'NONE',  ( 0.000000000000000000, 0.000000000000000000, 1.000000000000000000 ) ) ;
#281 = DATE_AND_TIME ( #259, #263 ) ;
#282 = ORIENTED_EDGE ( 'NONE', *, *, #216, .F. ) ;
#283 = VERTEX_POINT ( 'NONE', #168 ) ;
#284 = DATE_AND_TIME ( #131, #55 ) ;
#285 = ORIENTED_EDGE ( 'NONE', *, *, #307, .F. ) ;
#286 = DIRECTION ( 'NONE',  ( -1.000000000000000000, -0.000000000000000000, -0.000000000000000000 ) ) ;
#287 = ORIENTED_EDGE ( 'NONE', *, *, #260, .F. ) ;
#288 = DIRECTION ( 'NONE',  ( 0.000000000000000000, 0.000000000000000000, 1.000000000000000000 ) ) ;
#289 = AXIS2_PLACEMENT_3D ( 'NONE', #143, #66, #99 ) ;
#290 = VERTEX_POINT ( 'NONE', #124 ) ;
#291 = VERTEX_POINT ( 'NONE', #68 ) ;
#292 = CIRCLE ( 'NONE', #218, 10.00000000000000000 ) ;
#293 = PERSON_AND_ORGANIZATION ( #214, #278 ) ;
#294 = CARTESIAN_POINT ( 'NONE',  ( -3.000000000000000000, 0.000000000000000000, 0.000000000000000000 ) ) ;
#295 = DIRECTION ( 'NONE',  ( 0.000000000000000000, 0.000000000000000000, 1.000000000000000000 ) ) ;
#296 = AXIS2_PLACEMENT_3D ( 'NONE', #125, #67, #19 ) ;
#297 = APPROVAL_STATUS ( 'not_yet_approved' ) ;
#298 = FACE_BOUND ( 'NONE', #315, .T. ) ;
#299 = CYLINDRICAL_SURFACE ( 'NONE', #289, 10.00000000000000000 ) ;
#300 = DIRECTION ( 'NONE',  ( -1.000000000000000000, -0.000000000000000000, -0.000000000000000000 ) ) ;
#301 = DIRECTION ( 'NONE',  ( -1.000000000000000000, -0.000000000000000000, -0.000000000000000000 ) ) ;
#302 = CARTESIAN_POINT ( 'NONE',  ( -3.000000000000000000, 0.000000000000000000, 0.000000000000000000 ) ) ;
#303 = LOCAL_TIME ( 9, 36, 14.00000000000000000, #169 ) ;
#304 = ORIENTED_EDGE ( 'NONE', *, *, #270, .T. ) ;
#305 = SECURITY_CLASSIFICATION_LEVEL ( 'unclassified' ) ;
#306 = ORIENTED_EDGE ( 'NONE', *, *, #307, .T. ) ;
#307 = EDGE_CURVE ( 'NONE', #153, #290, #332, .T. ) ;
#308 = VECTOR ( 'NONE', #171, 1000.000000000000000 ) ;
#309 = CARTESIAN_POINT ( 'NONE',  ( -2.500000000000000444, 10.00000000000000000, 0.000000000000000000 ) ) ;
#310 = VERTEX_POINT ( 'NONE', #37 ) ;
#311 = LINE ( 'NONE', #53, #161 ) ;
#312 = SHAPE_DEFINITION_REPRESENTATION ( #194, #322 ) ;
#313 = AXIS2_PLACEMENT_3D ( 'NONE', #324, #321, #65 ) ;
#314 = ORIENTED_EDGE ( 'NONE', *, *, #331, .F. ) ;
#315 = EDGE_LOOP ( 'NONE', ( #304, #334 ) ) ;
#316 = APPROVAL_ROLE ( '' ) ;
#317 = LOCAL_TIME ( 9, 36, 14.00000000000000000, #90 ) ;
#318 = APPROVAL_STATUS ( 'not_yet_approved' ) ;
#319 = PERSON_AND_ORGANIZATION ( #214, #278 ) ;
#320 = EDGE_CURVE ( 'NONE', #291, #7, #167, .T. ) ;
#321 = DIRECTION ( 'NONE',  ( 1.000000000000000000, 0.000000000000000000, 0.000000000000000000 ) ) ;
#322 = ADVANCED_BREP_SHAPE_REPRESENTATION ( 'QB-CTZHWP-20-894-M', ( #151, #219 ), #139 ) ;
#323 = DATE_AND_TIME ( #86, #317 ) ;
#324 = CARTESIAN_POINT ( 'NONE',  ( -2.500000000000000444, 0.000000000000000000, 0.000000000000000000 ) ) ;
#325 = APPROVAL ( #297, 'UNSPECIFIED' ) ;
#326 = PRODUCT ( 'QB-CTZHWP-20-894-M', 'QB-CTZHWP-20-894-M', '', ( #220 ) ) ;
#327 = LINE ( 'NONE', #198, #47 ) ;
#328 = DIRECTION ( 'NONE',  ( 0.000000000000000000, 0.000000000000000000, 1.000000000000000000 ) ) ;
#329 = CARTESIAN_POINT ( 'NONE',  ( -1.614212418857619014, 0.000000000000000000, 0.000000000000000000 ) ) ;
#330 = CARTESIAN_POINT ( 'NONE',  ( -1.614212418857619014, 0.000000000000000000, 0.000000000000000000 ) ) ;
#331 = EDGE_CURVE ( 'NONE', #241, #283, #63, .T. ) ;
#332 = CIRCLE ( 'NONE', #313, 10.00000000000000000 ) ;
#333 = ORIENTED_EDGE ( 'NONE', *, *, #237, .F. ) ;
#334 = ORIENTED_EDGE ( 'NONE', *, *, #100, .T. ) ;
#335 = APPLICATION_CONTEXT ( 'configuration controlled 3d designs of mechanical parts and assemblies' ) ;
ENDSEC;
END-ISO-10303-21;
